  0
SECTION
  2
HEADER
  9
$ACADVER
  1
AC1009
  9
$INSBASE
 10
0.0
 20
0.0
 30
0.0
  9
$EXTMIN
 10
-56.017182915601829
 20
-0.0010427048376016
 30
-0.0015258207003583
  9
$EXTMAX
 10
56.026891190587321
 20
50.000645840131988
 30
0.0000000349246037
  9
$LIMMIN
 10
0.0
 20
0.0
  9
$LIMMAX
 10
12.0
 20
9.0
  9
$ORTHOMODE
 70
     0
  9
$REGENMODE
 70
     1
  9
$FILLMODE
 70
     1
  9
$QTEXTMODE
 70
     0
  9
$MIRRTEXT
 70
     0
  9
$DRAGMODE
 70
     2
  9
$LTSCALE
 40
1.0
  9
$OSMODE
 70
   111
  9
$ATTMODE
 70
     1
  9
$TEXTSIZE
 40
0.2
  9
$TRACEWID
 40
0.05
  9
$TEXTSTYLE
  7
STANDARD
  9
$CLAYER
  8
0
  9
$CELTYPE
  6
BYLAYER
  9
$CECOLOR
 62
   256
  9
$DIMSCALE
 40
1.0
  9
$DIMASZ
 40
0.18
  9
$DIMEXO
 40
0.0625
  9
$DIMDLI
 40
0.38
  9
$DIMRND
 40
0.0
  9
$DIMDLE
 40
0.0
  9
$DIMEXE
 40
0.18
  9
$DIMTP
 40
0.0
  9
$DIMTM
 40
0.0
  9
$DIMTXT
 40
0.18
  9
$DIMCEN
 40
0.09
  9
$DIMTSZ
 40
0.0
  9
$DIMTOL
 70
     0
  9
$DIMLIM
 70
     0
  9
$DIMTIH
 70
     1
  9
$DIMTOH
 70
     1
  9
$DIMSE1
 70
     0
  9
$DIMSE2
 70
     0
  9
$DIMTAD
 70
     0
  9
$DIMZIN
 70
     0
  9
$DIMBLK
  1

  9
$DIMASO
 70
     1
  9
$DIMSHO
 70
     1
  9
$DIMPOST
  1

  9
$DIMAPOST
  1

  9
$DIMALT
 70
     0
  9
$DIMALTD
 70
     2
  9
$DIMALTF
 40
25.399999999999999
  9
$DIMLFAC
 40
1.0
  9
$DIMTOFL
 70
     0
  9
$DIMTVP
 40
0.0
  9
$DIMTIX
 70
     0
  9
$DIMSOXD
 70
     0
  9
$DIMSAH
 70
     0
  9
$DIMBLK1
  1

  9
$DIMBLK2
  1

  9
$DIMSTYLE
  2
STANDARD
  9
$DIMCLRD
 70
     0
  9
$DIMCLRE
 70
     0
  9
$DIMCLRT
 70
     0
  9
$DIMTFAC
 40
1.0
  9
$DIMGAP
 40
0.09
  9
$LUNITS
 70
     2
  9
$LUPREC
 70
     4
  9
$SKETCHINC
 40
0.1
  9
$FILLETRAD
 40
0.0
  9
$AUNITS
 70
     0
  9
$AUPREC
 70
     0
  9
$MENU
  1
.
  9
$ELEVATION
 40
0.0
  9
$PELEVATION
 40
0.0
  9
$THICKNESS
 40
0.0
  9
$LIMCHECK
 70
     0
  9
$BLIPMODE
 70
     0
  9
$CHAMFERA
 40
0.0
  9
$CHAMFERB
 40
0.0
  9
$SKPOLY
 70
     0
  9
$TDCREATE
 40
2455156.5025847452
  9
$TDUPDATE
 40
2457557.6764198961
  9
$TDINDWG
 40
0.0409038079
  9
$TDUSRTIMER
 40
0.0409037269
  9
$USRTIMER
 70
     1
  9
$ANGBASE
 50
0.0
  9
$ANGDIR
 70
     0
  9
$PDMODE
 70
     0
  9
$PDSIZE
 40
0.0
  9
$PLINEWID
 40
0.0
  9
$COORDS
 70
     1
  9
$SPLFRAME
 70
     0
  9
$SPLINETYPE
 70
     6
  9
$SPLINESEGS
 70
     8
  9
$ATTDIA
 70
     1
  9
$ATTREQ
 70
     1
  9
$HANDLING
 70
     1
  9
$HANDSEED
  5
2223
  9
$SURFTAB1
 70
     6
  9
$SURFTAB2
 70
     6
  9
$SURFTYPE
 70
     6
  9
$SURFU
 70
     6
  9
$SURFV
 70
     6
  9
$UCSNAME
  2

  9
$UCSORG
 10
0.0
 20
0.0
 30
0.0
  9
$UCSXDIR
 10
1.0
 20
0.0
 30
0.0
  9
$UCSYDIR
 10
0.0
 20
1.0
 30
0.0
  9
$PUCSNAME
  2

  9
$PUCSORG
 10
0.0
 20
0.0
 30
0.0
  9
$PUCSXDIR
 10
1.0
 20
0.0
 30
0.0
  9
$PUCSYDIR
 10
0.0
 20
1.0
 30
0.0
  9
$USERI1
 70
     0
  9
$USERI2
 70
     0
  9
$USERI3
 70
     0
  9
$USERI4
 70
     0
  9
$USERI5
 70
     0
  9
$USERR1
 40
0.0
  9
$USERR2
 40
0.0
  9
$USERR3
 40
0.0
  9
$USERR4
 40
0.0
  9
$USERR5
 40
0.0
  9
$WORLDVIEW
 70
     1
  9
$SHADEDGE
 70
     3
  9
$SHADEDIF
 70
    70
  9
$TILEMODE
 70
     1
  9
$MAXACTVP
 70
    64
  9
$PLIMCHECK
 70
     0
  9
$PEXTMIN
 10
0.0
 20
0.0
 30
0.0
  9
$PEXTMAX
 10
0.0
 20
0.0
 30
0.0
  9
$PLIMMIN
 10
0.0
 20
0.0
  9
$PLIMMAX
 10
12.0
 20
9.0
  9
$UNITMODE
 70
     0
  9
$VISRETAIN
 70
     1
  9
$PLINEGEN
 70
     0
  9
$PSLTSCALE
 70
     1
  0
ENDSEC
  0
SECTION
  2
TABLES
  0
TABLE
  2
VPORT
 70
     1
  0
VPORT
  2
*ACTIVE
 70
     0
 10
0.0
 20
0.0
 11
1.0
 21
1.0
 12
0.0048541374927424
 22
24.9998015676472
 13
0.0
 23
0.0
 14
0.5
 24
0.5
 15
0.5
 25
0.5
 16
0.0
 26
0.0
 36
1.0
 17
0.0
 27
0.0
 37
0.0
 40
57.871141246593098
 41
1.9413309982486859
 42
50.0
 43
0.0
 44
0.0
 50
0.0
 51
0.0
 71
     0
 72
  1000
 73
     1
 74
     3
 75
     0
 76
     0
 77
     0
 78
     0
  0
ENDTAB
  0
TABLE
  2
LTYPE
 70
     2
  0
LTYPE
  2
CONTINUOUS
 70
     0
  3
Solid line
 72
    65
 73
     0
 40
0.0
  0
ENDTAB
  0
TABLE
  2
LAYER
 70
     2
  0
LAYER
  2
0
 70
     0
 62
     7
  6
CONTINUOUS
  0
LAYER
  2
RONDO
 70
     0
 62
    20
  6
CONTINUOUS
  0
ENDTAB
  0
TABLE
  2
STYLE
 70
    12
  0
STYLE
  2
STANDARD
 70
     0
 40
0.0
 41
1.0
 50
0.0
 71
     0
 42
0.2
  3
txt
  4

  0
ENDTAB
  0
TABLE
  2
VIEW
 70
     0
  0
ENDTAB
  0
TABLE
  2
UCS
 70
     0
  0
ENDTAB
  0
TABLE
  2
APPID
 70
    16
  0
APPID
  2
ACAD
 70
     0
  0
APPID
  2
ACADANNOPO
 70
     0
  0
APPID
  2
ACADANNOTATIVE
 70
     0
  0
APPID
  2
ACAD_DSTYLE_DIMJAG
 70
     0
  0
APPID
  2
ACAD_DSTYLE_DIMTALN
 70
     0
  0
APPID
  2
ACAD_MLEADERVER
 70
     0
  0
APPID
  2
ACAD_PSEXT
 70
     0
  0
APPID
  2
ACAD_DSTYLE_DIMJOGGED_JOGA
 70
     0
  0
APPID
  2
ACAECLAYERSTANDARD
 70
     0
  0
APPID
  2
ACCMTRANSPARENCY
 70
     0
  0
APPID
  2
ACAD_EXEMPT_FROM_CAD_STANDARDS
 70
     0
  0
APPID
  2
ACAD_NAV_VCDISPLAY
 70
     0
  0
APPID
  2
ACAUTHENVIRON
 70
     0
  0
APPID
  2
ACDBDYNAMICBLOCKTRUENAME
 70
     0
  0
APPID
  2
ACDBDYNAMICBLOCKGUID
 70
     0
  0
APPID
  2
CONTENTBLOCKICON
 70
     0
  0
ENDTAB
  0
TABLE
  2
DIMSTYLE
 70
    13
  0
DIMSTYLE
  2
STANDARD
 70
     0
  3

  4

  5

  6

  7

 40
1.0
 41
0.18
 42
0.0625
 43
0.38
 44
0.18
 45
0.0
 46
0.0
 47
0.0
 48
0.0
140
0.18
141
0.09
142
0.0
143
25.399999999999999
144
1.0
145
0.0
146
1.0
147
0.09
 71
     0
 72
     0
 73
     1
 74
     1
 75
     0
 76
     0
 77
     0
 78
     0
170
     0
171
     2
172
     0
173
     0
174
     0
175
     0
176
     0
177
     0
178
     0
  0
ENDTAB
  0
ENDSEC
  0
SECTION
  2
BLOCKS
  0
BLOCK
  8
0
  2
$MODEL_SPACE
 70
     0
 10
0.0
 20
0.0
 30
0.0
  3
$MODEL_SPACE
  1

  0
ENDBLK
  5
21
  8
0
  0
BLOCK
 67
     1
  8
0
  2
$PAPER_SPACE
 70
     0
 10
0.0
 20
0.0
 30
0.0
  3
$PAPER_SPACE
  1

  0
ENDBLK
  5
5B
 67
     1
  8
0
  0
BLOCK
  8
0
  2
RONDO_H750
 70
     0
 10
0.0
 20
0.0
 30
0.0
  3
RONDO_H750
  1

  0
ARC
  5
2170
  8
RONDO
 10
-38.700000000000038
 20
47.609999999999999
 30
0.0
 40
2.3900000000000028
 50
0.0
 51
90.0
  0
LINE
  5
2171
  8
RONDO
 10
-36.310000000000173
 20
47.609999999999999
 30
0.0
 11
-36.310000000000173
 21
2.3900000000000001
 31
0.0
  0
ARC
  5
2172
  8
RONDO
 10
-35.1099999999999
 20
2.3900000000000001
 30
0.0
 40
2.389999999999993
 50
180.0
 51
270.0
  0
LINE
  5
2173
  8
RONDO
 10
-37.499999999999773
 20
2.3900000000000001
 30
0.0
 11
-37.499999999999773
 21
47.609999999999999
 31
0.0
  0
ARC
  5
2174
  8
RONDO
 10
-35.1099999999999
 20
2.3900000000000001
 30
0.0
 40
1.200000000000004
 50
180.0
 51
270.0
  0
ARC
  5
2175
  8
RONDO
 10
-38.700000000000038
 20
47.609999999999971
 30
0.0
 40
1.2000000000000179
 50
0.0
 51
90.0
  0
LINE
  5
2176
  8
RONDO
 10
-38.700000000000038
 20
48.810000000000002
 30
0.0
 11
-56.009999999999991
 21
48.810000000000002
 31
0.0
  0
LINE
  5
2177
  8
RONDO
 10
-56.009999999999991
 20
50.000000000000007
 30
0.0
 11
-38.700000000000038
 21
50.0
 31
0.0
  0
LINE
  5
2178
  8
RONDO
 10
-56.009999999999991
 20
48.810000000000002
 30
0.0
 11
-56.009999999999991
 21
50.000000000000007
 31
0.0
  0
ARC
  5
2179
  8
RONDO
 10
38.700000000000038
 20
47.610000000000021
 30
0.0
 40
2.3900000000000028
 50
90.0
 51
180.0
  0
ARC
  5
217A
  8
RONDO
 10
35.1099999999999
 20
2.3900000000000001
 30
0.0
 40
2.389999999999993
 50
270.0
 51
0.0
  0
LINE
  5
217B
  8
RONDO
 10
36.309999999999718
 20
47.610000000000021
 30
0.0
 11
36.309999999999718
 21
2.3900000000000281
 31
0.0
  0
LINE
  5
217C
  8
RONDO
 10
35.1099999999999
 20
1.190000000000011
 30
0.0
 11
-35.1099999999999
 21
1.190000000000011
 31
0.0
  0
LINE
  5
217D
  8
RONDO
 10
35.1099999999999
 20
0.0000000000000142
 30
0.0
 11
-35.1099999999999
 21
-0.0000000000000142
 31
0.0
  0
LINE
  5
217E
  8
RONDO
 10
37.500000000000227
 20
2.3900000000000281
 30
0.0
 11
37.500000000000227
 21
47.609999999999999
 31
0.0
  0
LINE
  5
217F
  8
RONDO
 10
38.700000000000038
 20
48.810000000000016
 30
0.0
 11
56.009999999999991
 21
48.810000000000016
 31
0.0
  0
LINE
  5
2180
  8
RONDO
 10
56.009999999999991
 20
48.810000000000016
 30
0.0
 11
56.009999999999991
 21
50.000000000000007
 31
0.0
  0
LINE
  5
2181
  8
RONDO
 10
56.009999999999991
 20
50.000000000000007
 30
0.0
 11
38.700000000000038
 21
50.000000000000007
 31
0.0
  0
ARC
  5
2182
  8
RONDO
 10
35.1099999999999
 20
2.3900000000000281
 30
0.0
 40
1.2000000000000051
 50
270.0
 51
0.0
  0
ARC
  5
2183
  8
RONDO
 10
38.700000000000038
 20
47.609999999999999
 30
0.0
 40
1.2000000000000179
 50
90.0
 51
180.0
  0
ENDBLK
  5
216F
  8
0
  0
ENDSEC
  0
SECTION
  2
ENTITIES
  0
INSERT
  5
2184
  8
0
  2
RONDO_H750
 10
0.0
 20
0.0
 30
0.0
  0
ENDSEC
  0
EOF
